ISO-10303-21;
HEADER;
FILE_DESCRIPTION(('CATIA V5 STEP Exchange'),'2;1');

FILE_NAME('C:\\Users\\Astroboy\\Desktop\\RIDIX\\work\\RDCO301.48500.stp','2017-03-09T11:18:11+00:00',('none'),('none'),'CATIA Version 5 Release 19 GA (IN-10)','CATIA V5 STEP AP203','none');

FILE_SCHEMA(('CONFIG_CONTROL_DESIGN'));

ENDSEC;
/* file written by CATIA V5R19 */
DATA;
#5=PRODUCT('RDCO301.48500','','COLONNA GUIDA\X2\000D\X0\\X2\000A\X0\SCORRIMENTI ISO\X2\000D\X0\\X2\000A\X0\',(#2)) ;
#1=APPLICATION_CONTEXT('configuration controlled 3D design of mechanical parts and assemblies') ;
#14=PRODUCT_DEFINITION('',' ',#6,#3) ;
#16=SECURITY_CLASSIFICATION(' ',' ',#15) ;
#15=SECURITY_CLASSIFICATION_LEVEL('unclassified') ;
#47=CARTESIAN_POINT(' ',(0.,0.,0.)) ;
#51=CARTESIAN_POINT('Line Origine',(0.,0.,0.)) ;
#55=CARTESIAN_POINT('Limit',(0.,0.,0.)) ;
#56=CARTESIAN_POINT('Limit',(20.,0.,0.)) ;
#63=CARTESIAN_POINT('Line Origine',(0.,0.,0.)) ;
#67=CARTESIAN_POINT('Limit',(0.,0.,0.)) ;
#68=CARTESIAN_POINT('Limit',(0.,20.,0.)) ;
#72=CARTESIAN_POINT('Line Origine',(0.,0.,0.)) ;
#76=CARTESIAN_POINT('Limit',(0.,0.,0.)) ;
#77=CARTESIAN_POINT('Limit',(0.,0.,20.)) ;
#81=CARTESIAN_POINT('Punto.4',(0.,0.,0.)) ;
#83=CARTESIAN_POINT('Axis2P3D Location',(1.7763568394E-015,1.55431223448E-015,30.)) ;
#88=CARTESIAN_POINT('Axis2P3D Location',(1.7763568394E-015,1.55431223448E-015,30.)) ;
#92=CARTESIAN_POINT('Vertex',(-3.0351192903,-1.65809322526,30.)) ;
#94=CARTESIAN_POINT('Vertex',(3.0351192903,1.65809322526,30.)) ;
#97=CARTESIAN_POINT('Axis2P3D Location',(1.7763568394E-015,1.55431223448E-015,30.)) ;
#107=CARTESIAN_POINT('Axis2P3D Location',(-3.61946785144E-014,0.,0.)) ;
#112=CARTESIAN_POINT('Axis2P3D Location',(3.31658995813E-016,1.55431223448E-015,0.)) ;
#116=CARTESIAN_POINT('Vertex',(20.1843990238,-11.0267872042,0.)) ;
#118=CARTESIAN_POINT('Vertex',(-20.1843989235,11.0267873879,0.)) ;
#121=CARTESIAN_POINT('Axis2P3D Location',(3.10721655738E-015,1.7763568394E-015,0.)) ;
#130=CARTESIAN_POINT('Axis2P3D Location',(1.66392662536E-015,8.881784197E-016,0.)) ;
#134=CARTESIAN_POINT('Vertex',(-3.0351192903,-1.65809322526,3.60822483003E-016)) ;
#136=CARTESIAN_POINT('Vertex',(3.0351192903,1.65809322526,3.60822483003E-016)) ;
#139=CARTESIAN_POINT('Axis2P3D Location',(1.77494892783E-015,1.7763568394E-015,0.)) ;
#149=CARTESIAN_POINT('Axis2P3D Location',(3.90798504668E-014,2.04281036531E-013,-23.)) ;
#154=CARTESIAN_POINT('Line Origine',(20.6231902044,-11.2665001572,0.5)) ;
#158=CARTESIAN_POINT('Vertex',(21.0619814854,-11.5062129265,1.)) ;
#161=CARTESIAN_POINT('Axis2P3D Location',(-3.5527136788E-015,-8.881784197E-015,1.)) ;
#165=CARTESIAN_POINT('Vertex',(-21.0619814854,11.5062129265,1.)) ;
#168=CARTESIAN_POINT('Line Origine',(-20.6231902044,11.2665001572,0.5)) ;
#180=CARTESIAN_POINT('Axis2P3D Location',(2.39808173319E-014,3.5527136788E-015,-23.)) ;
#185=CARTESIAN_POINT('Axis2P3D Location',(2.6645352591E-015,3.5527136788E-015,1.)) ;
#197=CARTESIAN_POINT('Axis2P3D Location',(0.,0.,250.)) ;
#202=CARTESIAN_POINT('Line Origine',(21.0619814854,-11.5062129265,248.267949192)) ;
#206=CARTESIAN_POINT('Vertex',(21.0619814854,-11.5062129265,496.535898385)) ;
#209=CARTESIAN_POINT('Axis2P3D Location',(0.,0.,496.535898385)) ;
#213=CARTESIAN_POINT('Vertex',(-21.0619814854,11.5062129265,496.535898385)) ;
#216=CARTESIAN_POINT('Line Origine',(-21.0619814854,11.5062129265,248.267949192)) ;
#228=CARTESIAN_POINT('Axis2P3D Location',(0.,0.,496.535898385)) ;
#240=CARTESIAN_POINT('Axis2P3D Location',(0.,0.,500.)) ;
#245=CARTESIAN_POINT('Line Origine',(20.1843989235,-11.0267873879,498.267949192)) ;
#249=CARTESIAN_POINT('Vertex',(19.3068163616,-10.5473618493,500.)) ;
#252=CARTESIAN_POINT('Axis2P3D Location',(0.,0.,500.)) ;
#256=CARTESIAN_POINT('Vertex',(-19.3068163616,10.5473618493,500.)) ;
#259=CARTESIAN_POINT('Line Origine',(-20.1843989235,11.0267873879,498.267949192)) ;
#271=CARTESIAN_POINT('Axis2P3D Location',(0.,0.,500.)) ;
#283=CARTESIAN_POINT('Axis2P3D Location',(-22.,0.,500.)) ;
#292=CARTESIAN_POINT('Axis2P3D Location',(0.,-4.4408920985E-016,500.)) ;
#296=CARTESIAN_POINT('Vertex',(-3.0351192903,1.65809322526,500.)) ;
#298=CARTESIAN_POINT('Vertex',(3.0351192903,-1.65809322526,500.)) ;
#301=CARTESIAN_POINT('Axis2P3D Location',(0.,-2.22044604925E-015,500.)) ;
#311=CARTESIAN_POINT('Axis2P3D Location',(-6.66133814775E-016,-1.99840144433E-015,499.9)) ;
#316=CARTESIAN_POINT('Line Origine',(3.0351192903,-1.65809322526,485.155000003)) ;
#320=CARTESIAN_POINT('Vertex',(3.0351192903,-1.65809322526,470.)) ;
#323=CARTESIAN_POINT('Axis2P3D Location',(-6.66133814775E-016,-1.99840144433E-015,470.)) ;
#327=CARTESIAN_POINT('Vertex',(-3.0351192903,1.65809322526,470.)) ;
#330=CARTESIAN_POINT('Line Origine',(-3.0351192903,1.65809322526,485.155000003)) ;
#342=CARTESIAN_POINT('Axis2P3D Location',(-6.66133814775E-016,-1.99840144433E-015,470.)) ;
#354=CARTESIAN_POINT('Axis2P3D Location',(-6.66133814775E-016,-1.99840144433E-015,470.)) ;
#364=CARTESIAN_POINT('Axis2P3D Location',(1.7763568394E-015,1.55431223448E-015,0.1)) ;
#369=CARTESIAN_POINT('Line Origine',(-3.0351192903,-1.65809322526,14.845)) ;
#374=CARTESIAN_POINT('Line Origine',(3.0351192903,1.65809322526,14.845)) ;
#52=DIRECTION('Vector Direction',(1.,0.,0.)) ;
#64=DIRECTION('Vector Direction',(0.,1.,0.)) ;
#73=DIRECTION('Vector Direction',(0.,0.,1.)) ;
#84=DIRECTION('Axis2P3D Direction',(0.,0.,1.)) ;
#85=DIRECTION('Axis2P3D XDirection',(1.,0.,0.)) ;
#89=DIRECTION('Axis2P3D Direction',(0.,0.,1.)) ;
#98=DIRECTION('Axis2P3D Direction',(0.,0.,1.)) ;
#108=DIRECTION('Axis2P3D Direction',(0.,0.,-1.)) ;
#109=DIRECTION('Axis2P3D XDirection',(1.,0.,0.)) ;
#113=DIRECTION('Axis2P3D Direction',(0.,0.,-1.)) ;
#122=DIRECTION('Axis2P3D Direction',(0.,0.,-1.)) ;
#131=DIRECTION('Axis2P3D Direction',(0.,0.,-1.)) ;
#140=DIRECTION('Axis2P3D Direction',(0.,0.,-1.)) ;
#150=DIRECTION('Axis2P3D Direction',(-1.7763568394E-015,-8.881784197E-015,1.)) ;
#151=DIRECTION('Axis2P3D XDirection',(0.990154461021,-0.139979081726,5.26835606386E-016)) ;
#155=DIRECTION('Vector Direction',(0.620544580564,-0.339005049421,0.707106781187)) ;
#162=DIRECTION('Axis2P3D Direction',(1.26582958235E-015,8.95395792287E-015,-1.)) ;
#169=DIRECTION('Vector Direction',(-0.620544580564,0.339005049421,0.707106781187)) ;
#181=DIRECTION('Axis2P3D Direction',(-8.881784197E-016,-0.,1.)) ;
#182=DIRECTION('Axis2P3D XDirection',(-0.87758256189,0.479425538604,-7.90253409579E-016)) ;
#186=DIRECTION('Axis2P3D Direction',(2.04146785757E-016,3.73688184755E-016,-1.)) ;
#198=DIRECTION('Axis2P3D Direction',(0.,0.,-1.)) ;
#199=DIRECTION('Axis2P3D XDirection',(-0.87758256189,0.479425538604,-0.)) ;
#203=DIRECTION('Vector Direction',(0.,0.,-1.)) ;
#210=DIRECTION('Axis2P3D Direction',(0.,0.,-1.)) ;
#217=DIRECTION('Vector Direction',(0.,0.,-1.)) ;
#229=DIRECTION('Axis2P3D Direction',(0.,0.,-1.)) ;
#241=DIRECTION('Axis2P3D Direction',(0.,0.,-1.)) ;
#242=DIRECTION('Axis2P3D XDirection',(-0.87758256189,0.479425538604,0.)) ;
#246=DIRECTION('Vector Direction',(0.438791280945,-0.239712769302,-0.866025403784)) ;
#253=DIRECTION('Axis2P3D Direction',(0.,0.,-1.)) ;
#260=DIRECTION('Vector Direction',(-0.438791280945,0.239712769302,-0.866025403784)) ;
#272=DIRECTION('Axis2P3D Direction',(0.,0.,-1.)) ;
#284=DIRECTION('Axis2P3D Direction',(0.,0.,-1.)) ;
#285=DIRECTION('Axis2P3D XDirection',(1.,0.,0.)) ;
#293=DIRECTION('Axis2P3D Direction',(0.,0.,-1.)) ;
#302=DIRECTION('Axis2P3D Direction',(0.,0.,-1.)) ;
#312=DIRECTION('Axis2P3D Direction',(0.,-0.,-1.)) ;
#313=DIRECTION('Axis2P3D XDirection',(0.87758256189,-0.479425538604,0.)) ;
#317=DIRECTION('Vector Direction',(0.,0.,-1.)) ;
#324=DIRECTION('Axis2P3D Direction',(0.,-0.,-1.)) ;
#331=DIRECTION('Vector Direction',(0.,0.,-1.)) ;
#343=DIRECTION('Axis2P3D Direction',(0.,-0.,-1.)) ;
#355=DIRECTION('Axis2P3D Direction',(0.,0.,-1.)) ;
#356=DIRECTION('Axis2P3D XDirection',(1.,0.,0.)) ;
#365=DIRECTION('Axis2P3D Direction',(0.,-0.,1.)) ;
#366=DIRECTION('Axis2P3D XDirection',(0.87758256189,0.479425538604,0.)) ;
#370=DIRECTION('Vector Direction',(0.,0.,1.)) ;
#375=DIRECTION('Vector Direction',(0.,0.,1.)) ;
#48=AXIS2_PLACEMENT_3D(' ',#47,$,$) ;
#86=AXIS2_PLACEMENT_3D('Plane Axis2P3D',#83,#84,#85) ;
#90=AXIS2_PLACEMENT_3D('Circle Axis2P3D',#88,#89,$) ;
#99=AXIS2_PLACEMENT_3D('Circle Axis2P3D',#97,#98,$) ;
#110=AXIS2_PLACEMENT_3D('Plane Axis2P3D',#107,#108,#109) ;
#114=AXIS2_PLACEMENT_3D('Circle Axis2P3D',#112,#113,$) ;
#123=AXIS2_PLACEMENT_3D('Circle Axis2P3D',#121,#122,$) ;
#132=AXIS2_PLACEMENT_3D('Circle Axis2P3D',#130,#131,$) ;
#141=AXIS2_PLACEMENT_3D('Circle Axis2P3D',#139,#140,$) ;
#152=AXIS2_PLACEMENT_3D('Cone Axis2P3D',#149,#150,#151) ;
#163=AXIS2_PLACEMENT_3D('Circle Axis2P3D',#161,#162,$) ;
#183=AXIS2_PLACEMENT_3D('Cone Axis2P3D',#180,#181,#182) ;
#187=AXIS2_PLACEMENT_3D('Circle Axis2P3D',#185,#186,$) ;
#200=AXIS2_PLACEMENT_3D('Cylinder Axis2P3D',#197,#198,#199) ;
#211=AXIS2_PLACEMENT_3D('Circle Axis2P3D',#209,#210,$) ;
#230=AXIS2_PLACEMENT_3D('Circle Axis2P3D',#228,#229,$) ;
#243=AXIS2_PLACEMENT_3D('Cone Axis2P3D',#240,#241,#242) ;
#254=AXIS2_PLACEMENT_3D('Circle Axis2P3D',#252,#253,$) ;
#273=AXIS2_PLACEMENT_3D('Circle Axis2P3D',#271,#272,$) ;
#286=AXIS2_PLACEMENT_3D('Plane Axis2P3D',#283,#284,#285) ;
#294=AXIS2_PLACEMENT_3D('Circle Axis2P3D',#292,#293,$) ;
#303=AXIS2_PLACEMENT_3D('Circle Axis2P3D',#301,#302,$) ;
#314=AXIS2_PLACEMENT_3D('Cylinder Axis2P3D',#311,#312,#313) ;
#325=AXIS2_PLACEMENT_3D('Circle Axis2P3D',#323,#324,$) ;
#344=AXIS2_PLACEMENT_3D('Circle Axis2P3D',#342,#343,$) ;
#357=AXIS2_PLACEMENT_3D('Plane Axis2P3D',#354,#355,#356) ;
#367=AXIS2_PLACEMENT_3D('Cylinder Axis2P3D',#364,#365,#366) ;
#40=PRODUCT_DEFINITION_SHAPE(' ',' ',#14) ;
#59=COMPOSITE_CURVE('Linea.1',(#58),.U.) ;
#71=COMPOSITE_CURVE('Linea.2',(#70),.U.) ;
#80=COMPOSITE_CURVE('Linea.3',(#79),.U.) ;
#58=COMPOSITE_CURVE_SEGMENT(.DISCONTINUOUS.,.T.,#57) ;
#70=COMPOSITE_CURVE_SEGMENT(.DISCONTINUOUS.,.T.,#69) ;
#79=COMPOSITE_CURVE_SEGMENT(.DISCONTINUOUS.,.T.,#78) ;
#31=APPROVAL_PERSON_ORGANIZATION(#25,#21,#19) ;
#25=PERSON_AND_ORGANIZATION(#22,#23) ;
#22=PERSON(' ',' ',' ',$,$,$) ;
#23=ORGANIZATION(' ',' ',' ') ;
#21=APPROVAL(#20,' ') ;
#20=APPROVAL_STATUS('not_yet_approved') ;
#19=APPROVAL_ROLE('APPROVER') ;
#13=DATE_AND_TIME(#11,#12) ;
#12=LOCAL_TIME(12,18,10.,#10) ;
#10=COORDINATED_UNIVERSAL_TIME_OFFSET(0,0,.AHEAD.) ;
#103=ORIENTED_EDGE('',*,*,#96,.F.) ;
#104=ORIENTED_EDGE('',*,*,#101,.F.) ;
#127=ORIENTED_EDGE('',*,*,#120,.T.) ;
#128=ORIENTED_EDGE('',*,*,#125,.T.) ;
#145=ORIENTED_EDGE('',*,*,#138,.F.) ;
#146=ORIENTED_EDGE('',*,*,#143,.F.) ;
#174=ORIENTED_EDGE('',*,*,#160,.T.) ;
#175=ORIENTED_EDGE('',*,*,#167,.T.) ;
#176=ORIENTED_EDGE('',*,*,#172,.F.) ;
#177=ORIENTED_EDGE('',*,*,#120,.F.) ;
#191=ORIENTED_EDGE('',*,*,#172,.T.) ;
#192=ORIENTED_EDGE('',*,*,#189,.T.) ;
#193=ORIENTED_EDGE('',*,*,#160,.F.) ;
#194=ORIENTED_EDGE('',*,*,#125,.F.) ;
#222=ORIENTED_EDGE('',*,*,#208,.T.) ;
#223=ORIENTED_EDGE('',*,*,#215,.T.) ;
#224=ORIENTED_EDGE('',*,*,#220,.F.) ;
#225=ORIENTED_EDGE('',*,*,#167,.F.) ;
#234=ORIENTED_EDGE('',*,*,#220,.T.) ;
#235=ORIENTED_EDGE('',*,*,#232,.T.) ;
#236=ORIENTED_EDGE('',*,*,#208,.F.) ;
#237=ORIENTED_EDGE('',*,*,#189,.F.) ;
#265=ORIENTED_EDGE('',*,*,#215,.F.) ;
#266=ORIENTED_EDGE('',*,*,#251,.T.) ;
#267=ORIENTED_EDGE('',*,*,#258,.T.) ;
#268=ORIENTED_EDGE('',*,*,#263,.F.) ;
#277=ORIENTED_EDGE('',*,*,#232,.F.) ;
#278=ORIENTED_EDGE('',*,*,#263,.T.) ;
#279=ORIENTED_EDGE('',*,*,#275,.T.) ;
#280=ORIENTED_EDGE('',*,*,#251,.F.) ;
#289=ORIENTED_EDGE('',*,*,#275,.F.) ;
#290=ORIENTED_EDGE('',*,*,#258,.F.) ;
#307=ORIENTED_EDGE('',*,*,#300,.T.) ;
#308=ORIENTED_EDGE('',*,*,#305,.T.) ;
#336=ORIENTED_EDGE('',*,*,#305,.F.) ;
#337=ORIENTED_EDGE('',*,*,#322,.F.) ;
#338=ORIENTED_EDGE('',*,*,#329,.T.) ;
#339=ORIENTED_EDGE('',*,*,#334,.T.) ;
#348=ORIENTED_EDGE('',*,*,#300,.F.) ;
#349=ORIENTED_EDGE('',*,*,#334,.F.) ;
#350=ORIENTED_EDGE('',*,*,#346,.T.) ;
#351=ORIENTED_EDGE('',*,*,#322,.T.) ;
#360=ORIENTED_EDGE('',*,*,#346,.F.) ;
#361=ORIENTED_EDGE('',*,*,#329,.F.) ;
#380=ORIENTED_EDGE('',*,*,#143,.T.) ;
#381=ORIENTED_EDGE('',*,*,#373,.F.) ;
#382=ORIENTED_EDGE('',*,*,#96,.T.) ;
#383=ORIENTED_EDGE('',*,*,#378,.T.) ;
#387=ORIENTED_EDGE('',*,*,#138,.T.) ;
#388=ORIENTED_EDGE('',*,*,#378,.F.) ;
#389=ORIENTED_EDGE('',*,*,#101,.T.) ;
#390=ORIENTED_EDGE('',*,*,#373,.T.) ;
#147=FACE_BOUND('',#144,.T.) ;
#309=FACE_BOUND('',#306,.T.) ;
#82=CLOSED_SHELL('Closed Shell',(#106,#148,#179,#196,#227,#239,#270,#282,#310,#341,#353,#363,#385,#392)) ;
#53=VECTOR('Line Direction',#52,1.) ;
#65=VECTOR('Line Direction',#64,1.) ;
#74=VECTOR('Line Direction',#73,1.) ;
#156=VECTOR('Line Direction',#155,1.) ;
#170=VECTOR('Line Direction',#169,1.) ;
#204=VECTOR('Line Direction',#203,1.) ;
#218=VECTOR('Line Direction',#217,1.) ;
#247=VECTOR('Line Direction',#246,1.) ;
#261=VECTOR('Line Direction',#260,1.) ;
#318=VECTOR('Line Direction',#317,1.) ;
#332=VECTOR('Line Direction',#331,1.) ;
#371=VECTOR('Line Direction',#370,1.) ;
#376=VECTOR('Line Direction',#375,1.) ;
#394=ADVANCED_BREP_SHAPE_REPRESENTATION('NONE',(#393),#46) ;
#49=SHAPE_REPRESENTATION(' ',(#48),#46) ;
#106=ADVANCED_FACE('PartBody',(#105),#87,.F.) ;
#148=ADVANCED_FACE('PartBody',(#129,#147),#111,.T.) ;
#179=ADVANCED_FACE('PartBody',(#178),#153,.T.) ;
#196=ADVANCED_FACE('PartBody',(#195),#184,.T.) ;
#227=ADVANCED_FACE('PartBody',(#226),#201,.T.) ;
#239=ADVANCED_FACE('PartBody',(#238),#201,.T.) ;
#270=ADVANCED_FACE('PartBody',(#269),#244,.T.) ;
#282=ADVANCED_FACE('PartBody',(#281),#244,.T.) ;
#310=ADVANCED_FACE('PartBody',(#291,#309),#287,.F.) ;
#341=ADVANCED_FACE('PartBody',(#340),#315,.F.) ;
#353=ADVANCED_FACE('PartBody',(#352),#315,.F.) ;
#363=ADVANCED_FACE('PartBody',(#362),#358,.F.) ;
#385=ADVANCED_FACE('PartBody',(#384),#368,.F.) ;
#392=ADVANCED_FACE('PartBody',(#391),#368,.F.) ;
#4=APPLICATION_PROTOCOL_DEFINITION('international standard','config_control_design',1994,#1) ;
#32=APPROVAL_DATE_TIME(#13,#21) ;
#393=MANIFOLD_SOLID_BREP('PartBody',#82) ;
#11=CALENDAR_DATE(2017,9,3) ;
#30=CC_DESIGN_APPROVAL(#21,(#16,#6,#14)) ;
#18=CC_DESIGN_DATE_AND_TIME_ASSIGNMENT(#13,#17,(#16)) ;
#29=CC_DESIGN_DATE_AND_TIME_ASSIGNMENT(#13,#28,(#14)) ;
#17=DATE_TIME_ROLE('classification_date') ;
#28=DATE_TIME_ROLE('creation_date') ;
#27=CC_DESIGN_PERSON_AND_ORGANIZATION_ASSIGNMENT(#25,#26,(#16)) ;
#33=CC_DESIGN_PERSON_AND_ORGANIZATION_ASSIGNMENT(#25,#34,(#6)) ;
#35=CC_DESIGN_PERSON_AND_ORGANIZATION_ASSIGNMENT(#25,#36,(#6,#14)) ;
#37=CC_DESIGN_PERSON_AND_ORGANIZATION_ASSIGNMENT(#25,#38,(#5)) ;
#26=PERSON_AND_ORGANIZATION_ROLE('classification_officer') ;
#34=PERSON_AND_ORGANIZATION_ROLE('design_supplier') ;
#36=PERSON_AND_ORGANIZATION_ROLE('creator') ;
#38=PERSON_AND_ORGANIZATION_ROLE('design_owner') ;
#39=CC_DESIGN_SECURITY_CLASSIFICATION(#16,(#6)) ;
#91=CIRCLE('generated circle',#90,3.4585) ;
#100=CIRCLE('generated circle',#99,3.4585) ;
#115=CIRCLE('generated circle',#114,23.) ;
#124=CIRCLE('generated circle',#123,23.) ;
#133=CIRCLE('generated circle',#132,3.4585) ;
#142=CIRCLE('generated circle',#141,3.4585) ;
#164=CIRCLE('generated circle',#163,24.) ;
#188=CIRCLE('generated circle',#187,24.) ;
#212=CIRCLE('generated circle',#211,24.) ;
#231=CIRCLE('generated circle',#230,24.) ;
#255=CIRCLE('generated circle',#254,22.) ;
#274=CIRCLE('generated circle',#273,22.) ;
#295=CIRCLE('generated circle',#294,3.4585) ;
#304=CIRCLE('generated circle',#303,3.4585) ;
#326=CIRCLE('generated circle',#325,3.4585) ;
#345=CIRCLE('generated circle',#344,3.4585) ;
#153=CONICAL_SURFACE('Cone',#152,0.,0.785398163397) ;
#184=CONICAL_SURFACE('Cone',#183,0.,0.785398163397) ;
#244=CONICAL_SURFACE('Cone',#243,22.,0.523598775598) ;
#62=SHAPE_REPRESENTATION_RELATIONSHIP(' ',' ',#49,#60) ;
#395=SHAPE_REPRESENTATION_RELATIONSHIP(' ',' ',#49,#394) ;
#201=CYLINDRICAL_SURFACE('generated cylinder',#200,24.) ;
#315=CYLINDRICAL_SURFACE('generated cylinder',#314,3.4585) ;
#368=CYLINDRICAL_SURFACE('generated cylinder',#367,3.4585) ;
#3=DESIGN_CONTEXT(' ',#1,'design') ;
#96=EDGE_CURVE('',#93,#95,#91,.T.) ;
#101=EDGE_CURVE('',#95,#93,#100,.T.) ;
#120=EDGE_CURVE('',#117,#119,#115,.T.) ;
#125=EDGE_CURVE('',#119,#117,#124,.T.) ;
#138=EDGE_CURVE('',#135,#137,#133,.T.) ;
#143=EDGE_CURVE('',#137,#135,#142,.T.) ;
#160=EDGE_CURVE('',#117,#159,#157,.T.) ;
#167=EDGE_CURVE('',#159,#166,#164,.T.) ;
#172=EDGE_CURVE('',#119,#166,#171,.T.) ;
#189=EDGE_CURVE('',#166,#159,#188,.T.) ;
#208=EDGE_CURVE('',#159,#207,#205,.F.) ;
#215=EDGE_CURVE('',#207,#214,#212,.T.) ;
#220=EDGE_CURVE('',#166,#214,#219,.F.) ;
#232=EDGE_CURVE('',#214,#207,#231,.T.) ;
#251=EDGE_CURVE('',#207,#250,#248,.F.) ;
#258=EDGE_CURVE('',#250,#257,#255,.T.) ;
#263=EDGE_CURVE('',#214,#257,#262,.F.) ;
#275=EDGE_CURVE('',#257,#250,#274,.T.) ;
#300=EDGE_CURVE('',#297,#299,#295,.T.) ;
#305=EDGE_CURVE('',#299,#297,#304,.T.) ;
#322=EDGE_CURVE('',#321,#299,#319,.F.) ;
#329=EDGE_CURVE('',#321,#328,#326,.T.) ;
#334=EDGE_CURVE('',#328,#297,#333,.F.) ;
#346=EDGE_CURVE('',#328,#321,#345,.T.) ;
#373=EDGE_CURVE('',#93,#135,#372,.F.) ;
#378=EDGE_CURVE('',#95,#137,#377,.F.) ;
#102=EDGE_LOOP('',(#103,#104)) ;
#126=EDGE_LOOP('',(#127,#128)) ;
#144=EDGE_LOOP('',(#145,#146)) ;
#173=EDGE_LOOP('',(#174,#175,#176,#177)) ;
#190=EDGE_LOOP('',(#191,#192,#193,#194)) ;
#221=EDGE_LOOP('',(#222,#223,#224,#225)) ;
#233=EDGE_LOOP('',(#234,#235,#236,#237)) ;
#264=EDGE_LOOP('',(#265,#266,#267,#268)) ;
#276=EDGE_LOOP('',(#277,#278,#279,#280)) ;
#288=EDGE_LOOP('',(#289,#290)) ;
#306=EDGE_LOOP('',(#307,#308)) ;
#335=EDGE_LOOP('',(#336,#337,#338,#339)) ;
#347=EDGE_LOOP('',(#348,#349,#350,#351)) ;
#359=EDGE_LOOP('',(#360,#361)) ;
#379=EDGE_LOOP('',(#380,#381,#382,#383)) ;
#386=EDGE_LOOP('',(#387,#388,#389,#390)) ;
#105=FACE_OUTER_BOUND('',#102,.T.) ;
#129=FACE_OUTER_BOUND('',#126,.T.) ;
#178=FACE_OUTER_BOUND('',#173,.T.) ;
#195=FACE_OUTER_BOUND('',#190,.T.) ;
#226=FACE_OUTER_BOUND('',#221,.T.) ;
#238=FACE_OUTER_BOUND('',#233,.T.) ;
#269=FACE_OUTER_BOUND('',#264,.T.) ;
#281=FACE_OUTER_BOUND('',#276,.T.) ;
#291=FACE_OUTER_BOUND('',#288,.T.) ;
#340=FACE_OUTER_BOUND('',#335,.T.) ;
#352=FACE_OUTER_BOUND('',#347,.T.) ;
#362=FACE_OUTER_BOUND('',#359,.T.) ;
#384=FACE_OUTER_BOUND('',#379,.T.) ;
#391=FACE_OUTER_BOUND('',#386,.T.) ;
#61=GEOMETRIC_SET('NONE',(#59,#71,#80,#81)) ;
#60=GEOMETRICALLY_BOUNDED_SURFACE_SHAPE_REPRESENTATION('NONE',(#61),#46) ;
#45=UNCERTAINTY_MEASURE_WITH_UNIT(LENGTH_MEASURE(0.005),#41,'distance_accuracy_value','CONFUSED CURVE UNCERTAINTY') ;
#54=LINE('Line',#51,#53) ;
#66=LINE('Line',#63,#65) ;
#75=LINE('Line',#72,#74) ;
#157=LINE('Line',#154,#156) ;
#171=LINE('Line',#168,#170) ;
#205=LINE('Line',#202,#204) ;
#219=LINE('Line',#216,#218) ;
#248=LINE('Line',#245,#247) ;
#262=LINE('Line',#259,#261) ;
#319=LINE('Line',#316,#318) ;
#333=LINE('Line',#330,#332) ;
#372=LINE('Line',#369,#371) ;
#377=LINE('Line',#374,#376) ;
#2=MECHANICAL_CONTEXT(' ',#1,'mechanical') ;
#24=PERSONAL_ADDRESS(' ',' ',' ',' ',' ',' ',' ',' ',' ',' ',' ',' ',(#22),' ') ;
#87=PLANE('Plane',#86) ;
#111=PLANE('Plane',#110) ;
#287=PLANE('Plane',#286) ;
#358=PLANE('Plane',#357) ;
#43=PLANE_ANGLE_MEASURE_WITH_UNIT(PLANE_ANGLE_MEASURE(0.0174532925199),#42) ;
#7=PRODUCT_CATEGORY('part',$) ;
#9=PRODUCT_CATEGORY_RELATIONSHIP(' ',' ',#7,#8) ;
#6=PRODUCT_DEFINITION_FORMATION_WITH_SPECIFIED_SOURCE('',' ',#5,.NOT_KNOWN.) ;
#8=PRODUCT_RELATED_PRODUCT_CATEGORY('detail',$,(#5)) ;
#50=SHAPE_DEFINITION_REPRESENTATION(#40,#49) ;
#57=TRIMMED_CURVE('',#54,(#55),(#56),.T.,.CARTESIAN.) ;
#69=TRIMMED_CURVE('',#66,(#67),(#68),.T.,.CARTESIAN.) ;
#78=TRIMMED_CURVE('',#75,(#76),(#77),.T.,.CARTESIAN.) ;
#93=VERTEX_POINT('',#92) ;
#95=VERTEX_POINT('',#94) ;
#117=VERTEX_POINT('',#116) ;
#119=VERTEX_POINT('',#118) ;
#135=VERTEX_POINT('',#134) ;
#137=VERTEX_POINT('',#136) ;
#159=VERTEX_POINT('',#158) ;
#166=VERTEX_POINT('',#165) ;
#207=VERTEX_POINT('',#206) ;
#214=VERTEX_POINT('',#213) ;
#250=VERTEX_POINT('',#249) ;
#257=VERTEX_POINT('',#256) ;
#297=VERTEX_POINT('',#296) ;
#299=VERTEX_POINT('',#298) ;
#321=VERTEX_POINT('',#320) ;
#328=VERTEX_POINT('',#327) ;
#41=(LENGTH_UNIT()NAMED_UNIT(*)SI_UNIT(.MILLI.,.METRE.)) ;
#42=(NAMED_UNIT(*)PLANE_ANGLE_UNIT()SI_UNIT($,.RADIAN.)) ;
#44=(NAMED_UNIT(*)SI_UNIT($,.STERADIAN.)SOLID_ANGLE_UNIT()) ;
#46=(GEOMETRIC_REPRESENTATION_CONTEXT(3)GLOBAL_UNCERTAINTY_ASSIGNED_CONTEXT((#45))GLOBAL_UNIT_ASSIGNED_CONTEXT((#41,#42,#44))REPRESENTATION_CONTEXT(' ',' ')) ;
ENDSEC;
END-ISO-10303-21;
